border
sSNAKESs : Reptile Forum
 

Go Back   sSNAKESs : Reptile Forum > Community Forums > General Discussion

Notices

Closed Thread
 
LinkBack Thread Tools Display Modes
Old 09-24-03, 08:59 PM   #16 (permalink)
hip
Former member
 
hip's Avatar
 
Join Date: Apr-2002
Location: Left of center
Age: 48
Posts: 462
Ok here is the fingering most used by the majority of players.The first chord is fingered index on the 5 fret of the E string(A note) ring finger on the 7 fret of the a string(E note) Pinky finger on the 7 fret of the D string(A note) this gives you an A5 power chord in the 5th position. Slide all your fingers down to the third position(down in tonality) this gives you a G5 power chord.The last chord is an E5 power chord and is best played by fretting the A string and the D string with your index finger while letting the E string ring open (E5 power chord).The sound you hear on the recording can be created with many different set ups in equipment( extra cost) Get the tune happening first worry about the sound second. the best sound in the world wont make you sound good if you don't play well. I see you have 3 chords above I have as of yet sat down to play this song but I think there are 2 more chords in it ( you figure them out) not fair to you for me to figure it out for you. if you need any books or scales or web sites to help you out let me know. I f you want to know what gear I have just ask.

Have fun



Hip
__________________
“You know its funny I was thinking about what you said. The preeminent truth of our age is that you can not fight the system. But if as you say the truth is fluid that the truth is subjective then maybe you can fight the system. As long as just one person refuses to be broken refuses to bow down” “But can you win?” “Every time I say NO”
hip is offline  
Old 09-24-03, 09:03 PM   #17 (permalink)
hip
Former member
 
hip's Avatar
 
Join Date: Apr-2002
Location: Left of center
Age: 48
Posts: 462
I have some exercises that can help you with your speed ,but here is a rule you should follow first you get good then you get fast (walk before you run) I hope cranwill will put some input into this question too.

Hip
__________________
“You know its funny I was thinking about what you said. The preeminent truth of our age is that you can not fight the system. But if as you say the truth is fluid that the truth is subjective then maybe you can fight the system. As long as just one person refuses to be broken refuses to bow down” “But can you win?” “Every time I say NO”
hip is offline  
Old 09-24-03, 09:13 PM   #18 (permalink)
hip
Former member
 
hip's Avatar
 
Join Date: Apr-2002
Location: Left of center
Age: 48
Posts: 462
here is a bit of the 2 part guitar harmony in Master before the full ripping hammett solo hope you like

Em D
2 lead gtrs
e |-----19/22--19--------|20---17-------------------20---17--------|
B |-20---------20---20---|22---19---19---19-19-19---22---19---19---|
G |-21--------------21---|----------19---19-19-19-------------19---|
D |----------------------|-----------------------------------------|
A |----------------------|-----------------------------------------|
E |----------------------|-----------------------------------------|

Cadd9 Amsus2

e |19---15-------------------19---15--------|17---15h17p15-14--------|
B |20---17---17---17-17-17---20---17---17---|19---17h19p17-16---17---|
G |----------17---17-17-17-------------17---|-------------------17---|
D |-----------------------------------------|------------------------|
A |-----------------------------------------|------------------------|
E |-----------------------------------------|------------------------|

end
B7 B7/D# RhyFig2a

e |----------14--------|14---16---17---19----|
B |16---17--------17---|16---17---19---20----|
G |16---17--/19---17---|---------------------|
D |--------------------|---------------------|
A |--------------------|---------------------|
E |--------------------|---------------------|
__________________
“You know its funny I was thinking about what you said. The preeminent truth of our age is that you can not fight the system. But if as you say the truth is fluid that the truth is subjective then maybe you can fight the system. As long as just one person refuses to be broken refuses to bow down” “But can you win?” “Every time I say NO”
hip is offline  
Old 09-24-03, 09:18 PM   #19 (permalink)
Member
 
Shane Tesser's Avatar
 
Join Date: May-2002
Location: Ontario
Age: 43
Posts: 1,671
Country:
Hey hip..you copied my quote "walk before you run" lmao...great minds brother! Hip taught guitar for years and is about 1000 times more advanced then i am so hes a very good person to learn from...especially if you want to learn proper techniques and styles and scales etc.

Someone asked about sandman and master of puppets i think? Sandmans solo is pretty basic to play...master is up until that super high note near the end of the last solo. That note was actually the E string accidently pulled right off the fret board and it got stuck. I read an article where Kirk Hammit of Metallica said that it was totally accidental and that he can't repeat it to this day...once it was recorded they just listened to it and liked it so they decided to leave it. Other then that note..i can play it...and most of metallicas stuff...big fan
Shane Tesser is offline  
Old 09-24-03, 09:20 PM   #20 (permalink)
hip
Former member
 
hip's Avatar
 
Join Date: Apr-2002
Location: Left of center
Age: 48
Posts: 462
Enter sand man solo hope you like









N.C. E5 N.C. E5
1/4
e:----------------------------|-------------------------------------|
B:-15-15-15-12-----12---------|------12-12----15b(17)-15b(17)-(15)/-|
G:-------------14b----14b(16)-|-(14)-------14-----------------------|
D:----------------------------|-------------------------------------|
A:----------------------------|-------------------------------------|
E:----------------------------|-------------------------------------|



N.C. G5

e:-------------------------------------------------|
B:-------------------------------------------------|
G:-12/14-14-14-14\12-12-12-12/14-14-14-14\12-12-12-|
D:-------------------------------------------------|
A:-------------------------------------------------|
E:-------------------------------------------------|



F#5 G5 F#5 E5
~~~~~~
e:-------------------------------------|
B:-------------------------------------|
G:-14p12-------------------------------|
D:-------14-14p12----------------------|
A:----------------14-14p12/10----------|
E:----------------------------12-(12)/-|



N.C. E5

e:---------12-12-12---------12-12-12---------12-12-12---------12-12-12-|
B:-15b(17)----------15b(17)----------15b(17)----------15b(17)----------|
G:---------------------------------------------------------------------|
D:---------------------------------------------------------------------|
A:---------------------------------------------------------------------|
E:---------------------------------------------------------------------|



N.C. E5

e:---------12-12-12h15p12-12h15p12-12h15p12-12-15-12-12-14-14-|
B:-15b(17)----------------------------------------------------|
G:------------------------------------------------------------|
D:------------------------------------------------------------|
A:------------------------------------------------------------|
E:------------------------------------------------------------|


N.C. G5

e:-17p14----17p14----17p14-19p15----19p15----19p15-|
B:-------15-------15-------------17-------17-------|
G:-------------------------------------------------|
D:-------------------------------------------------|
A:-------------------------------------------------|
E:-------------------------------------------------|


Half-Time Feel
F#5 G5 F#5 N.C.
~~~~~~~~~~
e:-21p17----21p17----21p17----22b(24)-(22)/--------|------------------|
B:-------17-------17-------17---------------9b(10)-|-(9)---9b(10)---9-|
G:------------------------------------------9b(11)-|-(9)---9b(11)---9-|
D:-------------------------------------------------|------------------|
A:-------------------------------------------------|------------------|
E:-------------------------------------------------|------------------|




~~~~~ ~~~~~~~~
e:-----------------------------------|------------------------------------|
B:-9b(10)--9b(10)-----------------10-|-(10)----10-8-7---7/8\7---7---------|
G:-9b(11)--9b(11)--7--9--------7-----|----------------9-------9---9-7---7-|
D:------------------------7h9--------|--------------------------------9---|
A:-----------------------------------|------------------------------------|
E:-----------------------------------|------------------------------------|


End HTF
F#5 B5 F#5
~~~~~
e:-----------------------------|---------------------------------------|
B:-----------------------------|---------------------------------------|
G:-9p7-------------------------|-16b(18)-14-----14-16b(18)--14------14-|
D:-----9p7---7-9-7-------------|------------16------------------16-----|
A:---------9-------9-6-7-------|---------------------------------------|
E:-----------------------10-7\-|---------------------------------------|



B5 F#5

e:--------------------------------------|
B:--------------------------------------|
G:-16b(18)-14----14-16b(18)-14-------14-|
D:------------16---------------16-16----|
A:--------------------------------------|
E:--------------------------------------|


B5 E5 Grad. Trem.
Release
e:------------------------------------------------|------------|
B:---------17---------17---------------17---------|------------|
G:-16b(18)----16b(18)----16b(18)----------16b(18)-|-(16)-------|
D:------------------------------------------------|------------|
A:------------------------------------------------|------------|
E:------------------------------------------------|------------|



F#5 B5 E5

e:-21p17----21p17----21p17----21p17----21p17----21p17----|
B:-------17-------17-------17-------17-------17-------17-|
G:-------------------------------------------------------|
D:-------------------------------------------------------|
A:-------------------------------------------------------|
E:-------------------------------------------------------|




~~~~~~~~~~~~~~
e:-22b(24)--22-22--22b(24)--22-22-22b(24)-------(22)\-|
B:----------------------------------------------------|
G:----------------------------------------------------|
D:----------------------------------------------------|
A:----------------------------------------------------|
E:----------------------------------------------------|



E5
~~~~trem~~~~
e:-----------------------------|-------------------------|
B:-10p8p7----------------------|-------------------------|
G:--------9-9p7----------------|-------------------------|
D:--------------9-9p7-5--7b(9)-|-5-----------------------|
A:-----------------------------|----7---(7)----------5h7-|
E:-----------------------------|-------------------------|




~~~~~~~trem~~~~~~~
e:--------------------------|
B:--------------------------|
G:--------------------------|
D:--------------------------|
A:-4---(4)----------------0-|
E:--------------------------


Hip
__________________
“You know its funny I was thinking about what you said. The preeminent truth of our age is that you can not fight the system. But if as you say the truth is fluid that the truth is subjective then maybe you can fight the system. As long as just one person refuses to be broken refuses to bow down” “But can you win?” “Every time I say NO”
hip is offline  
Login to remove ads
Closed Thread

Thread Tools
Display Modes

Posting Rules
You may not post new threads
You may not post replies
You may not post attachments
You may not edit your posts

BB code is On
Smilies are On
[IMG] code is On
HTML code is Off
Trackbacks are On
Pingbacks are On
Refbacks are On




All times are GMT -6. The time now is 12:09 PM.

Powered by vBulletin®
©2000 - 2017, Jelsoft Enterprises Ltd.
Copyright © 2002-17, Hobby Solutions Inc.

right

SEO by vBSEO 3.1.0